ISO-10303-21;
HEADER;
FILE_DESCRIPTION (( 'STEP AP203' ),
    '1' );
FILE_NAME ('MQWP-25.4-532.STEP',
    '2020-12-22T09:30:11',
    ( '' ),
    ( '' ),
    'SwSTEP 2.0',
    'SolidWorks 2020',
    '' );
FILE_SCHEMA (( 'CONFIG_CONTROL_DESIGN' ));
ENDSEC;

DATA;
#1 = CC_DESIGN_PERSON_AND_ORGANIZATION_ASSIGNMENT ( #69, #154, ( #141 ) ) ;
#2 = EDGE_CURVE ( 'NONE', #10, #165, #132, .T. ) ;
#3 = PRODUCT ( 'MQWP-25.4-532', 'MQWP-25.4-532', '', ( #60 ) ) ;
#4 = APPROVAL_PERSON_ORGANIZATION ( #91, #96, #164 ) ;
#5 = PERSON_AND_ORGANIZATION ( #73, #126 ) ;
#6 = DIRECTION ( 'NONE',  ( 1.000000000000000000, 0.000000000000000000, 0.000000000000000000 ) ) ;
#7 = COORDINATED_UNIVERSAL_TIME_OFFSET ( 8, 0, .AHEAD. ) ;
#8 = CC_DESIGN_APPROVAL ( #148, ( #172 ) ) ;
#9 = SHAPE_DEFINITION_REPRESENTATION ( #115, #92 ) ;
#10 = VERTEX_POINT ( 'NONE', #52 ) ;
#11 = DIRECTION ( 'NONE',  ( -1.000000000000000000, -0.000000000000000000, -0.000000000000000000 ) ) ;
#12 = CC_DESIGN_PERSON_AND_ORGANIZATION_ASSIGNMENT ( #23, #117, ( #172 ) ) ;
#13 = LOCAL_TIME ( 17, 30, 11.00000000000000000, #36 ) ;
#14 = DIRECTION ( 'NONE',  ( 0.000000000000000000, 0.000000000000000000, 1.000000000000000000 ) ) ;
#15 = DIRECTION ( 'NONE',  ( -0.000000000000000000, 0.000000000000000000, 1.000000000000000000 ) ) ;
#16 = APPROVAL ( #102, 'UNSPECIFIED' ) ;
#17 = CIRCLE ( 'NONE', #111, 3.000000000000000000 ) ;
#18 = APPLICATION_CONTEXT ( 'configuration controlled 3d designs of mechanical parts and assemblies' ) ;
#19 = DIRECTION ( 'NONE',  ( 0.000000000000000000, 0.000000000000000000, 1.000000000000000000 ) ) ;
#20 = ORIENTED_EDGE ( 'NONE', *, *, #2, .T. ) ;
#21 = PERSON_AND_ORGANIZATION ( #73, #126 ) ;
#22 = ORIENTED_EDGE ( 'NONE', *, *, #45, .F. ) ;
#23 = PERSON_AND_ORGANIZATION ( #73, #126 ) ;
#24 = CARTESIAN_POINT ( 'NONE',  ( 1.224646799147353454E-16, 3.000000000000000000, 0.000000000000000000 ) ) ;
#25 = ORIENTED_EDGE ( 'NONE', *, *, #50, .T. ) ;
#26 = CARTESIAN_POINT ( 'NONE',  ( 2.449293598294706907E-16, 0.000000000000000000, 3.000000000000000000 ) ) ;
#27 = VECTOR ( 'NONE', #44, 1000.000000000000000 ) ;
#28 = CC_DESIGN_PERSON_AND_ORGANIZATION_ASSIGNMENT ( #5, #114, ( #43 ) ) ;
#29 = DIRECTION ( 'NONE',  ( -1.000000000000000000, -0.000000000000000000, -0.000000000000000000 ) ) ;
#30 = CARTESIAN_POINT ( 'NONE',  ( 0.000000000000000000, 0.000000000000000000, 0.000000000000000000 ) ) ;
#31 = DIRECTION ( 'NONE',  ( 0.000000000000000000, 0.000000000000000000, 1.000000000000000000 ) ) ;
#32 = UNCERTAINTY_MEASURE_WITH_UNIT (LENGTH_MEASURE( 1.000000000000000082E-05 ), #67, 'distance_accuracy_value', 'NONE');
#33 = LOCAL_TIME ( 17, 30, 11.00000000000000000, #7 ) ;
#34 = AXIS2_PLACEMENT_3D ( 'NONE', #97, #146, #82 ) ;
#35 = ADVANCED_FACE ( 'NONE', ( #133 ), #93, .F. ) ;
#36 = COORDINATED_UNIVERSAL_TIME_OFFSET ( 8, 0, .AHEAD. ) ;
#37 = EDGE_LOOP ( 'NONE', ( #135, #20, #76, #137 ) ) ;
#38 = CALENDAR_DATE ( 2020, 22, 12 ) ;
#39 = EDGE_CURVE ( 'NONE', #64, #74, #47, .T. ) ;
#40 = AXIS2_PLACEMENT_3D ( 'NONE', #24, #6, #169 ) ;
#41 = ORIENTED_EDGE ( 'NONE', *, *, #39, .T. ) ;
#42 = ADVANCED_FACE ( 'NONE', ( #129 ), #107, .T. ) ;
#43 = SECURITY_CLASSIFICATION ( '', '', #87 ) ;
#44 = DIRECTION ( 'NONE',  ( -1.000000000000000000, -0.000000000000000000, -0.000000000000000000 ) ) ;
#45 = EDGE_CURVE ( 'NONE', #165, #10, #17, .T. ) ;
#46 = DESIGN_CONTEXT ( 'detailed design', #109, 'design' ) ;
#47 = CIRCLE ( 'NONE', #98, 3.000000000000000000 ) ;
#48 = PERSON_AND_ORGANIZATION ( #73, #126 ) ;
#49 = CALENDAR_DATE ( 2020, 22, 12 ) ;
#50 = EDGE_CURVE ( 'NONE', #74, #64, #140, .T. ) ;
#51 = APPROVAL_DATE_TIME ( #88, #96 ) ;
#52 = CARTESIAN_POINT ( 'NONE',  ( 0.9999999999999995559, 3.673940397442059868E-16, -3.000000000000000000 ) ) ;
#53 = AXIS2_PLACEMENT_3D ( 'NONE', #56, #124, #15 ) ;
#54 = ADVANCED_FACE ( 'NONE', ( #175 ), #147, .T. ) ;
#55 = CARTESIAN_POINT ( 'NONE',  ( 0.000000000000000000, 3.673940397442059868E-16, -3.000000000000000000 ) ) ;
#56 = CARTESIAN_POINT ( 'NONE',  ( 0.9999999999999997780, 3.000000000000000000, 0.000000000000000000 ) ) ;
#57 = DATE_AND_TIME ( #62, #110 ) ;
#58 = CLOSED_SHELL ( 'NONE', ( #42, #54, #68, #35 ) ) ;
#59 = ORIENTED_EDGE ( 'NONE', *, *, #2, .F. ) ;
#60 = MECHANICAL_CONTEXT ( 'NONE', #18, 'mechanical' ) ;
#61 = CARTESIAN_POINT ( 'NONE',  ( 2.449293598294706907E-16, 0.000000000000000000, 0.000000000000000000 ) ) ;
#62 = CALENDAR_DATE ( 2020, 22, 12 ) ;
#63 = LOCAL_TIME ( 17, 30, 11.00000000000000000, #131 ) ;
#64 = VERTEX_POINT ( 'NONE', #108 ) ;
#65 = DIRECTION ( 'NONE',  ( -1.000000000000000000, -0.000000000000000000, -0.000000000000000000 ) ) ;
#66 = CARTESIAN_POINT ( 'NONE',  ( 2.449293598294706907E-16, 0.000000000000000000, 0.000000000000000000 ) ) ;
#67 =( LENGTH_UNIT ( ) NAMED_UNIT ( * ) SI_UNIT ( .MILLI., .METRE. ) );
#68 = ADVANCED_FACE ( 'NONE', ( #173 ), #84, .F. ) ;
#69 = PERSON_AND_ORGANIZATION ( #73, #126 ) ;
#70 = DIRECTION ( 'NONE',  ( -1.000000000000000000, -0.000000000000000000, -0.000000000000000000 ) ) ;
#71 = CALENDAR_DATE ( 2020, 22, 12 ) ;
#72 = APPROVAL_PERSON_ORGANIZATION ( #48, #16, #134 ) ;
#73 = PERSON ( 'UNSPECIFIED', 'UNSPECIFIED', 'UNSPECIFIED', ('UNSPECIFIED'), ('UNSPECIFIED'), ('UNSPECIFIED') ) ;
#74 = VERTEX_POINT ( 'NONE', #26 ) ;
#75 = PERSON_AND_ORGANIZATION ( #73, #126 ) ;
#76 = ORIENTED_EDGE ( 'NONE', *, *, #86, .T. ) ;
#77 = DIRECTION ( 'NONE',  ( 1.000000000000000000, 0.000000000000000000, 0.000000000000000000 ) ) ;
#78 = DIRECTION ( 'NONE',  ( 0.000000000000000000, 0.000000000000000000, 1.000000000000000000 ) ) ;
#79 = EDGE_LOOP ( 'NONE', ( #120, #116, #118, #171 ) ) ;
#80 = CC_DESIGN_DATE_AND_TIME_ASSIGNMENT ( #153, #119, ( #141 ) ) ;
#81 = LINE ( 'NONE', #125, #161 ) ;
#82 = DIRECTION ( 'NONE',  ( 0.000000000000000000, 0.000000000000000000, 1.000000000000000000 ) ) ;
#83 = LOCAL_TIME ( 17, 30, 11.00000000000000000, #127 ) ;
#84 = PLANE ( 'NONE',  #53 ) ;
#85 = AXIS2_PLACEMENT_3D ( 'NONE', #66, #65, #174 ) ;
#86 = EDGE_CURVE ( 'NONE', #165, #74, #81, .T. ) ;
#87 = SECURITY_CLASSIFICATION_LEVEL ( 'unclassified' ) ;
#88 = DATE_AND_TIME ( #49, #83 ) ;
#89 = CC_DESIGN_APPROVAL ( #16, ( #141 ) ) ;
#90 = EDGE_LOOP ( 'NONE', ( #25, #41 ) ) ;
#91 = PERSON_AND_ORGANIZATION ( #73, #126 ) ;
#92 = ADVANCED_BREP_SHAPE_REPRESENTATION ( 'MQWP-25.4-532', ( #112, #167 ), #162 ) ;
#93 = PLANE ( 'NONE',  #40 ) ;
#94 = CC_DESIGN_SECURITY_CLASSIFICATION ( #43, ( #172 ) ) ;
#95 = CARTESIAN_POINT ( 'NONE',  ( 0.000000000000000000, 0.000000000000000000, 0.000000000000000000 ) ) ;
#96 = APPROVAL ( #101, 'UNSPECIFIED' ) ;
#97 = CARTESIAN_POINT ( 'NONE',  ( 0.000000000000000000, 0.000000000000000000, 0.000000000000000000 ) ) ;
#98 = AXIS2_PLACEMENT_3D ( 'NONE', #61, #104, #78 ) ;
#99 = APPROVAL_PERSON_ORGANIZATION ( #145, #148, #130 ) ;
#100 = CC_DESIGN_DATE_AND_TIME_ASSIGNMENT ( #166, #156, ( #43 ) ) ;
#101 = APPROVAL_STATUS ( 'not_yet_approved' ) ;
#102 = APPROVAL_STATUS ( 'not_yet_approved' ) ;
#103 = APPLICATION_PROTOCOL_DEFINITION ( 'international standard', 'config_control_design', 1994, #109 ) ;
#104 = DIRECTION ( 'NONE',  ( -1.000000000000000000, -0.000000000000000000, -0.000000000000000000 ) ) ;
#105 = COORDINATED_UNIVERSAL_TIME_OFFSET ( 8, 0, .AHEAD. ) ;
#106 = DIRECTION ( 'NONE',  ( 0.000000000000000000, 0.000000000000000000, 1.000000000000000000 ) ) ;
#107 = CYLINDRICAL_SURFACE ( 'NONE', #34, 3.000000000000000000 ) ;
#108 = CARTESIAN_POINT ( 'NONE',  ( 2.449293598294706907E-16, 3.673940397442059868E-16, -3.000000000000000000 ) ) ;
#109 = APPLICATION_CONTEXT ( 'configuration controlled 3d designs of mechanical parts and assemblies' ) ;
#110 = LOCAL_TIME ( 17, 30, 11.00000000000000000, #105 ) ;
#111 = AXIS2_PLACEMENT_3D ( 'NONE', #139, #29, #14 ) ;
#112 = MANIFOLD_SOLID_BREP ( 'Ðý×', #58 ) ;
#113 = APPROVAL_DATE_TIME ( #57, #148 ) ;
#114 = PERSON_AND_ORGANIZATION_ROLE ( 'classification_officer' ) ;
#115 = PRODUCT_DEFINITION_SHAPE ( 'NONE', 'NONE',  #141 ) ;
#116 = ORIENTED_EDGE ( 'NONE', *, *, #151, .T. ) ;
#117 = PERSON_AND_ORGANIZATION_ROLE ( 'creator' ) ;
#118 = ORIENTED_EDGE ( 'NONE', *, *, #50, .F. ) ;
#119 = DATE_TIME_ROLE ( 'creation_date' ) ;
#120 = ORIENTED_EDGE ( 'NONE', *, *, #45, .T. ) ;
#121 =( NAMED_UNIT ( * ) SI_UNIT ( $, .STERADIAN. ) SOLID_ANGLE_UNIT ( ) );
#122 = DIRECTION ( 'NONE',  ( -1.000000000000000000, -0.000000000000000000, -0.000000000000000000 ) ) ;
#123 = AXIS2_PLACEMENT_3D ( 'NONE', #142, #70, #106 ) ;
#124 = DIRECTION ( 'NONE',  ( -1.000000000000000000, 0.000000000000000000, -0.000000000000000000 ) ) ;
#125 = CARTESIAN_POINT ( 'NONE',  ( 0.000000000000000000, 0.000000000000000000, 3.000000000000000000 ) ) ;
#126 = ORGANIZATION ( 'UNSPECIFIED', 'UNSPECIFIED', '' ) ;
#127 = COORDINATED_UNIVERSAL_TIME_OFFSET ( 8, 0, .AHEAD. ) ;
#128 = PRODUCT_RELATED_PRODUCT_CATEGORY ( 'detail', '', ( #3 ) ) ;
#129 = FACE_OUTER_BOUND ( 'NONE', #79, .T. ) ;
#130 = APPROVAL_ROLE ( '' ) ;
#131 = COORDINATED_UNIVERSAL_TIME_OFFSET ( 8, 0, .AHEAD. ) ;
#132 = CIRCLE ( 'NONE', #123, 3.000000000000000000 ) ;
#133 = FACE_OUTER_BOUND ( 'NONE', #90, .T. ) ;
#134 = APPROVAL_ROLE ( '' ) ;
#135 = ORIENTED_EDGE ( 'NONE', *, *, #151, .F. ) ;
#136 = APPLICATION_PROTOCOL_DEFINITION ( 'international standard', 'config_control_design', 1994, #18 ) ;
#137 = ORIENTED_EDGE ( 'NONE', *, *, #39, .F. ) ;
#138 =( NAMED_UNIT ( * ) PLANE_ANGLE_UNIT ( ) SI_UNIT ( $, .RADIAN. ) );
#139 = CARTESIAN_POINT ( 'NONE',  ( 0.9999999999999995559, 0.000000000000000000, 0.000000000000000000 ) ) ;
#140 = CIRCLE ( 'NONE', #85, 3.000000000000000000 ) ;
#141 = PRODUCT_DEFINITION ( 'UNKNOWN', '', #172, #46 ) ;
#142 = CARTESIAN_POINT ( 'NONE',  ( 0.9999999999999995559, 0.000000000000000000, 0.000000000000000000 ) ) ;
#143 = PERSON_AND_ORGANIZATION_ROLE ( 'design_owner' ) ;
#144 = APPROVAL_STATUS ( 'not_yet_approved' ) ;
#145 = PERSON_AND_ORGANIZATION ( #73, #126 ) ;
#146 = DIRECTION ( 'NONE',  ( -1.000000000000000000, -0.000000000000000000, -0.000000000000000000 ) ) ;
#147 = CYLINDRICAL_SURFACE ( 'NONE', #150, 3.000000000000000000 ) ;
#148 = APPROVAL ( #144, 'UNSPECIFIED' ) ;
#149 = CARTESIAN_POINT ( 'NONE',  ( 0.9999999999999995559, 0.000000000000000000, 3.000000000000000000 ) ) ;
#150 = AXIS2_PLACEMENT_3D ( 'NONE', #95, #122, #31 ) ;
#151 = EDGE_CURVE ( 'NONE', #10, #64, #159, .T. ) ;
#152 = CC_DESIGN_PERSON_AND_ORGANIZATION_ASSIGNMENT ( #75, #143, ( #3 ) ) ;
#153 = DATE_AND_TIME ( #71, #13 ) ;
#154 = PERSON_AND_ORGANIZATION_ROLE ( 'creator' ) ;
#155 = CALENDAR_DATE ( 2020, 22, 12 ) ;
#156 = DATE_TIME_ROLE ( 'classification_date' ) ;
#157 = CC_DESIGN_PERSON_AND_ORGANIZATION_ASSIGNMENT ( #21, #170, ( #172 ) ) ;
#158 = EDGE_LOOP ( 'NONE', ( #22, #59 ) ) ;
#159 = LINE ( 'NONE', #55, #27 ) ;
#160 = CC_DESIGN_APPROVAL ( #96, ( #43 ) ) ;
#161 = VECTOR ( 'NONE', #11, 1000.000000000000000 ) ;
#162 =( GEOMETRIC_REPRESENTATION_CONTEXT ( 3 ) GLOBAL_UNCERTAINTY_ASSIGNED_CONTEXT ( ( #32 ) ) GLOBAL_UNIT_ASSIGNED_CONTEXT ( ( #67, #138, #121 ) ) REPRESENTATION_CONTEXT ( 'NONE', 'WORKASPACE' ) );
#163 = DATE_AND_TIME ( #155, #63 ) ;
#164 = APPROVAL_ROLE ( '' ) ;
#165 = VERTEX_POINT ( 'NONE', #149 ) ;
#166 = DATE_AND_TIME ( #38, #33 ) ;
#167 = AXIS2_PLACEMENT_3D ( 'NONE', #30, #19, #77 ) ;
#168 = APPROVAL_DATE_TIME ( #163, #16 ) ;
#169 = DIRECTION ( 'NONE',  ( 0.000000000000000000, 0.000000000000000000, -1.000000000000000000 ) ) ;
#170 = PERSON_AND_ORGANIZATION_ROLE ( 'design_supplier' ) ;
#171 = ORIENTED_EDGE ( 'NONE', *, *, #86, .F. ) ;
#172 = PRODUCT_DEFINITION_FORMATION_WITH_SPECIFIED_SOURCE ( 'ANY', '', #3, .NOT_KNOWN. ) ;
#173 = FACE_OUTER_BOUND ( 'NONE', #158, .T. ) ;
#174 = DIRECTION ( 'NONE',  ( 0.000000000000000000, 0.000000000000000000, 1.000000000000000000 ) ) ;
#175 = FACE_OUTER_BOUND ( 'NONE', #37, .T. ) ;
ENDSEC;
END-ISO-10303-21;
